neskimos.com

celebrating controller thumb for 00001100 years.
It is currently Sat Sep 21, 2019 1:14 pm

All times are UTC - 5 hours [ DST ]




Post new topic Reply to topic  [ 3 posts ] 
Author Message
 Post subject: Bass tabs
PostPosted: Sun Mar 06, 2005 12:15 am 
Offline
Goomba
Goomba
User avatar

Joined: Sun Mar 06, 2005 12:11 am
Posts: 52
Location: The one place you didn't look
I'd like to start off saying that you guys make wonderful music.
Now, to the topic at hand. I and I'm sure many others would appreciate it if bass tabs were put up on the main site for at least a few songs. Where's the bass love?


Top
 Profile  
Reply with quote  
 Post subject:
PostPosted: Tue Mar 15, 2005 1:22 pm 
Offline
Paragoomba
Paragoomba
User avatar

Joined: Fri Aug 13, 2004 3:03 pm
Posts: 119
Location: Paseo on Motavia
Alright. As a fellow bassist I can agree we need some bass tabs.

Here's one of my favs on bass, the Earth theme from A boy and His blob:

Code:
G |-2-2-6-6-7-7-9-9-|-----6-6-7-7-0-0-|-----6-6-7-7-9-9-|-----6-6-7-7-----|
D |-----------------|-7-7-------------|-7-7-------------|-7-7---------6-6-|
A |-----------------|-----------------|-----------------|-----------------|
E |-----------------|-----------------|-----------------|-----------------|

|-------9-9-10-10-12-12-|-------------------------|-------------------------|
|-10-10-----------------|-10-10-14-14-15-15-------|-------11-11-12-12-14-14-|
|-----------------------|-------------------13-13-|-12-12-------------------|
|-----------------------|-------------------------|-------------------------|

|-------------------------|-------------------------|-------------------------|
|-------11-11-12-12-------|-------11-11-12-12-14-14-|-------11-11-12-12-------|
|-12-12-------------11-11-|-12-12-------------------|-12-12-------------10-10-|
|-------------------------|-------------------------|-------------------------|

|-------------------------|-------------------------|-------------------------|
|-------11-11-12-12-14-14-|-------11-11-12-12-------|-------11-11-12-12-14-14-|
|-12-12-------------------|-12-12-------------11-11-|-12-12-------------------|
|-------------------------|-------------------------|-------------------------|

|-------------------0-0-|---------|---------|-2-2-6-6-7-7-9-9-|
|-------11-11-12-12-----|---------|---------|-----------------|
|-12-12-----------------|---------|---------|-----------------|
|-----------------------|---------|---------|-----------------|

|-----6-6-7-7-0-0-|-----6-6-7-7-9-9-|-----6-6-7-7-----|-----6-6-7-7-9-9-|
|-7-7-------------|-7-7-------------|-7-7---------6-6-|-7-7-------------|
|-----------------|-----------------|-----------------|-----------------|
|-----------------|-----------------|-----------------|-----------------|

|-----6-6-7-7-0-0-|---------|---------|-2-2-6-6-7-7-9-9-|-----6-6-7-7-----|
|-7-7-------------|---------|---------|-----------------|-7-7---------6-6-|
|-----------------|---------|---------|-----------------|-----------------|
|-----------------|---------|---------|-----------------|-----------------|

|-----6-6-7-7-9-9-|-----6-6-7-7-0-0-|-5-5-9-9-10-10-----|-5-5-9-9-10-10-----|
|-7-7-------------|-7-7-------------|---------------9-9-|---------------9-9-|
|-----------------|-----------------|-------------------|-------------------|
|-----------------|-----------------|-------------------|-------------------|

|-5-5-9-9-10-10-----|-5-5-9-9-10-10-12-12-|---------------9-9-|
|---------------9-9-|---------------------|-7-7-9-9-10-10-----|
|-------------------|---------------------|-------------------|
|-------------------|---------------------|-------------------|

|---------------0-0-|---------------9-9-|---------------0-0-|-0-0-0-0-0-0-0-0-|
|-7-7-9-9-10-10-----|-7-7-9-9-10-10-----|-7-7-9-9-10-10-----|-----------------|
|-------------------|-------------------|-------------------|-----------------|
|-------------------|-------------------|-------------------|-----------------|

|-0-0-0-0-0-0-0-0-|-----------|-2-2-6-6-7-7-9-9-|-----6-6-7-7-0-0-|
|-----------------|-10--------|-----------------|-7-7-------------|
|-----------------|-----------|-----------------|-----------------|
|-----------------|-----------|-----------------|-----------------|

|-----6-6-7-7-9-9-|-----6-6-7-7-----|-------9-9-10-10-12-12-|
|-7-7-------------|-7-7---------6-6-|-10-10-----------------|
|-----------------|-----------------|-----------------------|
|-----------------|-----------------|-----------------------|

|-------------------------|-------------------------|-------------------------|
|-10-10-14-14-15-15-------|-------11-11-12-12-14-14-|-------11-11-12-12-------|
|-------------------13-13-|-12-12-------------------|-12-12-------------11-11-|
|-------------------------|-------------------------|-------------------------|

|-------------------------|-------------------------|-------------------------|
|-------11-11-12-12-14-14-|-------11-11-12-12-------|-------11-11-12-12-14-14-|
|-12-12-------------------|-12-12-------------10-10-|-12-12-------------------|
|-------------------------|-------------------------|-------------------------|

|-------------------------|-------------------------|-------------------0-0-|
|-------11-11-12-12-------|-------11-11-12-12-14-14-|-------11-11-12-12-----|
|-12-12-------------11-11-|-12-12-------------------|-12-12-----------------|
|-------------------------|-------------------------|-----------------------|


Don't ask for riff notation, just listen to the song. BTW Snifit metioned a program called Harmony Assembler, which i used to tab this. It's a really great, easy to use program. The only drawback is the trial version will only export about 15 sec. of tab, but that's not a problem when you're using VG tunes!

_________________
Image


Top
 Profile  
Reply with quote  
 Post subject:
PostPosted: Tue Sep 06, 2005 2:05 pm 
Offline
Microgoomba
Microgoomba
User avatar

Joined: Sat Sep 03, 2005 12:12 pm
Posts: 9
Location: Victor, NY
Any other bass tabs? I've been writing out some to Contra: Jungle, Contra: Base, and Metal Gear Part One. I'll post them when they're finished.

_________________
'To have a precious someone to protect.... only then will you become strong.' -Haku, to Naruto
ImageImage


Top
 Profile  
Reply with quote  
Display posts from previous:  Sort by  
Post new topic Reply to topic  [ 3 posts ] 

All times are UTC - 5 hours [ DST ]


Who is online

Users browsing this forum: No registered users and 1 guest


You cannot post new topics in this forum
You cannot reply to topics in this forum
You cannot edit your posts in this forum
You cannot delete your posts in this forum
You cannot post attachments in this forum

Search for:
Jump to:  
cron
Powered by phpBB® Forum Software © phpBB Group