neskimos.com

celebrating controller thumb for 00001100 years.
It is currently Mon Jun 24, 2019 10:09 pm

All times are UTC - 5 hours [ DST ]




Post new topic Reply to topic  [ 44 posts ]  Go to page Previous  1, 2
Author Message
 Post subject:
PostPosted: Wed Mar 23, 2005 10:34 pm 
Offline
Angry Star
Angry Star
User avatar

Joined: Fri Jun 04, 2004 11:17 am
Posts: 5970
Location: Brooklyn, NY
hmmm... I think this topic should be stickified...

Image

What'd you say Hook?

_________________
Image
360/PS3/PS4/Steam: basinpup
Fallout wrote:
What the gay?


Top
 Profile  
Reply with quote  
 Post subject:
PostPosted: Fri Mar 25, 2005 3:49 pm 
Offline
Nameless NESkomic Artist
User avatar

Joined: Sat Sep 27, 2003 5:15 pm
Posts: 16881
Location: St. Augustine, FL
Guys, I have a crazy suggestion here for making a tab.

What about if all of us got together and all worked on tabbing out Bionic Commando? Some of us who are newer to tabbing could do the easier parts, and the tab veterans could do the harder more hardcore parts of the song. Then we could all proofread them and try to make it as accurate as possible. What do you guys think? Good idea?

_________________
Image

ExPostFacto wrote:
For someone who uses the ":3" emoticon way too much you're a scary motherfucker.


Top
 Profile  
Reply with quote  
 Post subject:
PostPosted: Fri Mar 25, 2005 3:57 pm 
Offline
The so-called robot with admin powers
User avatar

Joined: Sat Sep 27, 2003 6:08 pm
Posts: 17391
Location: Deep Within My Room's Darkness
Bubble Man wrote:
hmmm... I think this topic should be stickified...

Image

What'd you say Hook?


I refuse.

_________________
Signature Created By BlackHeart
Image


Top
 Profile  
Reply with quote  
 Post subject:
PostPosted: Fri Mar 25, 2005 5:33 pm 
Offline
Ptooie
Ptooie
User avatar

Joined: Wed Aug 25, 2004 6:24 pm
Posts: 488
Nameless88 wrote:
Guys, I have a crazy suggestion here for making a tab.

What about if all of us got together and all worked on tabbing out Bionic Commando? Some of us who are newer to tabbing could do the easier parts, and the tab veterans could do the harder more hardcore parts of the song. Then we could all proofread them and try to make it as accurate as possible. What do you guys think? Good idea?


That sounds like a really good idea, actually. I think I already have some of the first bits of movement 2 part A.

_________________
Image
"That's how fetishes start. You think, "Oh, that popup is digusting, yet intriguing... ". The next day you're dressed up like a pony and you have a pickle jar up your ass"


Top
 Profile  
Reply with quote  
 Post subject:
PostPosted: Fri Mar 25, 2005 6:47 pm 
Offline
In-House Sax Machine
User avatar

Joined: Thu Dec 18, 2003 10:38 pm
Posts: 4922
Location: The Jungles of Mega Man 5
Nameless88 wrote:
Guys, I have a crazy suggestion here for making a tab.

What about if all of us got together and all worked on tabbing out Bionic Commando? Some of us who are newer to tabbing could do the easier parts, and the tab veterans could do the harder more hardcore parts of the song. Then we could all proofread them and try to make it as accurate as possible. What do you guys think? Good idea?


Crap, if I could play guitar, I'd totally jump in and do it.

_________________
For Great Justice Mirror


Top
 Profile  
Reply with quote  
 Post subject:
PostPosted: Fri Mar 25, 2005 6:52 pm 
Offline
Angry Star
Angry Star
User avatar

Joined: Fri Jun 04, 2004 11:17 am
Posts: 5970
Location: Brooklyn, NY
I'll help out, but:

a. I won't have my guitar till Tuesday, just getting it set up.
b. I've never tabbed out a song by ear.

_________________
Image
360/PS3/PS4/Steam: basinpup
Fallout wrote:
What the gay?


Top
 Profile  
Reply with quote  
 Post subject:
PostPosted: Sun Mar 27, 2005 2:37 am 
Offline
Angry Sun
Angry Sun
User avatar

Joined: Tue Oct 19, 2004 8:36 am
Posts: 3866
Location: Brisbane, Australia
Hey guys, i tried my luck at tabbing bionic commando movement 1 by ear, i only tabbed a little bit because ive been busy with other schooling as so forth. im not sure how correct it is, but sounds right when i play it, feel free to corrct any mistakes i made.

Code:
--------------------|--------------------|---------------------|
-----------1--------|-----------------1--|---------------------|
--------------------|----------3---------|--1-0----------------|
--3-----------------|--------------------|------3--------------|
--------------------|--------------------|---------------------|
--------------------|--------------------|---------------------|


                                                                 
-------------------|----------------------|---------------1------|
-------------------|------1----------4----|--2---------------4-2-|
----------------0--|--1-3-----------------|----------------------|
-------------------|----------------------|----------------------|
-------------------|----------------------|----------------------|
-------------------|----------------------|----------------------|


                                                                   
----------------------|----------------------|---------------------|
--4-2------------2----|--2----1---------1----|--2---------------2--|
------3---------------|------------3---------|-----------1---------|
----------------------|----------------------|---------------------|
----------------------|----------------------|---------------------|
----------------------|----------------------|---------------------|


                                                                         
----------------------|----------------------|--0-2-4------0-2-4----2-0-|
--0-------------0--4--|--2---------------2-4-|--------------------------|
----------------------|-----------1----------|--------------------------|
-------4--------------|----------------------|--------------------------|
----------------------|----------------------|--------------------------|
----------------------|----------------------|--------------------------|


                                                                 
--2-0-------------2-----|--------------------|-------------------|
------3--------------3--|--1--------2--------|--4----------------|
---------2--------------|--------------------|-------------------|
------------------------|--------------------|-------------------|
------------------------|--------------------|-------------------|
------------------------|--------------------|-------------------|


                                                                   
-----------------0-2-4-5-|--7-----------------|--------------------|
-----------0-2-4---------|-----------0--------|-----------------0--|
-------------------------|--------------------|--------------------|
-------------------------|--------------------|----------7---------|
-------------------------|--------------------|--------------------|
-------------------------|--------------------|--------------------|


                                                               
---------------------|-------------------|--------------------|
---------------------|-------------------|-----------3--------|
--0------------------|-------------------|--------------------|
----4-2--------------|----------------4--|--0-----------------|
---------------------|-------------------|--------------------|
---------------------|-------------------|--------------------|


                                                             
--------------------|---------------------|------------------|
----------1------3--|---------------------|------------------|
--------------------|--3-2-0--------------|------------------|
--------------------|---------------------|------------------|
--------------------|---------------------|------------------|
--------------------|---------------------|------------------|


                                                                         
-------------------------|---------------------|----------------------1--|
----------------1--2-----|---------------------|----------------1--2-----|
-------------3--------3--|---------------------|-------------3-----------|
--3-------3--------------|--4--------2----1----|--3-------3--------------|
-------4-----------------|---------------------|-------4-----------------|
-------------------------|---------------------|-------------------------|


                                                                             
---------------------|
---------------------|
--3--------1----0----|
---------------------|
---------------------|
---------------------|

_________________
Image


Top
 Profile  
Reply with quote  
 Post subject:
PostPosted: Sun Mar 27, 2005 3:44 am 
Offline
Angry Star
Angry Star
User avatar

Joined: Fri Jun 04, 2004 11:17 am
Posts: 5970
Location: Brooklyn, NY
oh man... to tired to break out the guitar and check that out now... I'll mess it around with it tomorrow... looks good though...

_________________
Image
360/PS3/PS4/Steam: basinpup
Fallout wrote:
What the gay?


Top
 Profile  
Reply with quote  
 Post subject:
PostPosted: Sun Apr 03, 2005 5:14 pm 
Offline
VAN DAMMAGE
User avatar

Joined: Sat Aug 21, 2004 9:12 pm
Posts: 9336
Location: Gotham City
Anyone got a tab for Vampire Killer? The one on vgjam sucks.

_________________
Image


Top
 Profile  
Reply with quote  
 Post subject:
PostPosted: Sun Apr 03, 2005 6:46 pm 
Offline
Angry Star
Angry Star
User avatar

Joined: Fri Jun 04, 2004 11:17 am
Posts: 5970
Location: Brooklyn, NY
The Ice Climbers have a pretty good tab, alhtough its just the straight up version of the song, not the hardcore NESkimos one:

Lead:
http://www.ice-climbers.com/tabs/castle ... 1/lgui.txt

Harmony:
http://www.ice-climbers.com/tabs/castle ... 1/hgui.txt

Bass:
http://www.ice-climbers.com/tabs/castle ... 1/bass.txt

_________________
Image
360/PS3/PS4/Steam: basinpup
Fallout wrote:
What the gay?


Top
 Profile  
Reply with quote  
 Post subject:
PostPosted: Tue Apr 05, 2005 4:11 pm 
Offline
Technophilic NESkimo
Technophilic NESkimo
User avatar

Joined: Tue Sep 23, 2003 11:17 am
Posts: 923
Nice tab, Neon. Good ear. The last bit there is the harmony part, which is pretty muddled in the mix...I'm impressed you picked it out.

_________________
I am on Captain America's side personally.
-Crashman


Top
 Profile  
Reply with quote  
 Post subject:
PostPosted: Tue Apr 05, 2005 4:58 pm 
Offline
Angry Star
Angry Star
User avatar

Joined: Fri Jun 04, 2004 11:17 am
Posts: 5970
Location: Brooklyn, NY
Damn i keep forgetting to try out that tab, i'm (note: I cannot spell 'definitely' correctly) doing it when I go home. Bionic Commando is my favorite NESkimo track... :\m/:

_________________
Image
360/PS3/PS4/Steam: basinpup
Fallout wrote:
What the gay?


Top
 Profile  
Reply with quote  
 Post subject:
PostPosted: Tue Apr 05, 2005 10:35 pm 
Offline
Angry Sun
Angry Sun
User avatar

Joined: Tue Oct 19, 2004 8:36 am
Posts: 3866
Location: Brisbane, Australia
Dr Wily wrote:
Nice tab, Neon. Good ear. The last bit there is the harmony part, which is pretty muddled in the mix...I'm impressed you picked it out.


Thanks, it was just a lucky fluke, i was messin around cos i couldnt figure it out, so i referred to the npr files i had and it sound the same so i tried to figure it that way, i didnt really think i was that close.

_________________
Image


Top
 Profile  
Reply with quote  
 Post subject:
PostPosted: Wed Apr 06, 2005 8:33 am 
Offline
Angry Star
Angry Star
User avatar

Joined: Fri Jun 04, 2004 11:17 am
Posts: 5970
Location: Brooklyn, NY
Yeah I was just playing it last night using your tab and it sounds perfect. I'd love to have the whole thing tabbed (Movement I and II) but that would take someone forever. Still, great job.

_________________
Image
360/PS3/PS4/Steam: basinpup
Fallout wrote:
What the gay?


Top
 Profile  
Reply with quote  
 Post subject:
PostPosted: Wed Apr 06, 2005 2:11 pm 
Offline
Nameless NESkomic Artist
User avatar

Joined: Sat Sep 27, 2003 5:15 pm
Posts: 16881
Location: St. Augustine, FL
Since this thread has been bumped to the top again. Anyone interested/started yet on working on Bionic Commando? I think it'd be pretty easy in some parts, but it might be a real challange to do. But, hey, I'm up for one if anyone else is! :wink:

_________________
Image

ExPostFacto wrote:
For someone who uses the ":3" emoticon way too much you're a scary motherfucker.


Top
 Profile  
Reply with quote  
 Post subject:
PostPosted: Wed Apr 06, 2005 4:32 pm 
Offline
Ptooie
Ptooie
User avatar

Joined: Wed Aug 25, 2004 6:24 pm
Posts: 488
I'm up for it. It seems my school has been offering less and less homework lately, so I have more spare time.

[EDIT] - At the moment I'm figuring out bits and pieces of the music from BC's map screen, and some stuff that comes later in the song after that. I can't quite figure out the riff that comes in at 2:15, but I've got the one before that I think (BTW the part I'm talking about repeates 3 ties pretty much, then goes to the slower part of the song)

_________________
Image
"That's how fetishes start. You think, "Oh, that popup is digusting, yet intriguing... ". The next day you're dressed up like a pony and you have a pickle jar up your ass"


Last edited by Vegi on Wed Apr 06, 2005 10:15 pm, edited 1 time in total.

Top
 Profile  
Reply with quote  
 Post subject:
PostPosted: Wed Apr 06, 2005 8:13 pm 
Offline
Angry Sun
Angry Sun
User avatar

Joined: Tue Oct 19, 2004 8:36 am
Posts: 3866
Location: Brisbane, Australia
well just that part took a few months to get where, but my guitar was only a four-string for a while and i just moved to a completely new city 3-4 months ago, im gunna try to do some more soon

_________________
Image


Top
 Profile  
Reply with quote  
 Post subject:
PostPosted: Wed Apr 06, 2005 8:17 pm 
Offline
Buzzy Beetle
Buzzy Beetle

Joined: Wed Sep 01, 2004 12:03 am
Posts: 507
Location: Swarthmore, PA
i dont no how many bassist's there are here, but im gonna try to see if i can tab that bass line. Of course, if theres not alot of bassits, i dont see what good it will do, but new ppl might want it. woo woo time to start!

_________________
Napalm Man wrote:
chewey?" He was mentally handicapped.


Top
 Profile  
Reply with quote  
 Post subject:
PostPosted: Mon Apr 11, 2005 10:15 pm 
Offline
Boom-Boom
Boom-Boom
User avatar

Joined: Mon Apr 11, 2005 9:36 am
Posts: 2112
Location: In an underwater cavern of some sort with lots of spikes...
Here's a new tab from Bubble Man:

Final Fantasy VII - Weapon Raid (one of my favorite tracks from that game).

Standard Tuning EADGBe, and keep in mind this is just the lead part.

Code:
e|-------------------------------------------------|
B|-------------------------------------------------|
G|----------------------------13-12-13-15-13-12-13-|
D|----11-10-11-13-11-10-11-15----------------------|
A|-13----------------------------------------------|
E|-------------------------------------------------|

e|----------------------------16-15-16-18-16-15-16-|
B|----14-13-14-16-14-13-14-18----------------------|
G|-15----------------------------------------------|
D|-------------------------------------------------|
A|-------------------------------------------------|
E|-------------------------------------------------|

e|-21-20-21-18-17-18-------------------------------|
B|-------------------18-17-18----------------------|
G|----------------------------18-17-18-20----------|
D|----------------------------------------20-18-16-|
A|-------------------------------------------------|
E|-------------------------------------------------|

e|-------------------------------------------------|
B|-------------------------------------------------|
G|----------------------------13-12-13-15-13-12-13-|
D|----11-10-11-13-11-10-11-15----------------------|
A|-13----------------------------------------------|
E|-------------------------------------------------|

e|----------------------------16-15-16-18-16-15-16-|
B|----14-13-14-16-14-13-14-18----------------------|
G|-15----------------------------------------------|
D|-------------------------------------------------|
A|-------------------------------------------------|
E|-------------------------------------------------|

e|-21-20-21-18-17-18----------------------------18-|
B|-------------------18-17-18----------------18----|
G|----------------------------18-17-18----18-------|
D|-------------------------------------20----------|
A|-------------------------------------------------|
E|-------------------------------------------------|

e|-21-20-21-18-17-18----------------18-21----------|
B|-------------------18-17-18----18----------------|
G|----------------------------18-------------------|
D|-------------------------------------------------|
A|-------------------------------------------------|
E|-------------------------------------------------|

e|-------------------------------------------------|
B|-------------------------------------------------|
G|-------------------------------------------------|
D|----------------------------------14-15-12-14-15-|
A|-17-14-16-17-14-16-17-16-14-16-17----------------|
E|-------------------------------------------------|

e|-------------------------------------------------|
B|-------------------------------------------------|
G|----------------------12-13-10-12-13-10-12-13-12-|
D|-12-14-15-14-12-14-15----------------------------|
A|-------------------------------------------------|
E|-------------------------------------------------|

e|-------------------------------------------9-----|
B|----------11-12-9-11-12-9-11-12-11-9-11-12-------|
G|-10-12-13----------------------------------------|
D|-------------------------------------------------|
A|-------------------------------------------------|
E|-------------------------------------------------|

e|-15-14-16----15-15-14----15-14-16-14-------------|
B|-------------------------------------------------|
G|-------------------------------------------------|
D|-------------------------------------------------|
A|-------------------------------------------------|
E|-------------------------------------------------|


Top
 Profile  
Reply with quote  
Display posts from previous:  Sort by  
Post new topic Reply to topic  [ 44 posts ]  Go to page Previous  1, 2

All times are UTC - 5 hours [ DST ]


Who is online

Users browsing this forum: No registered users and 1 guest


You cannot post new topics in this forum
You cannot reply to topics in this forum
You cannot edit your posts in this forum
You cannot delete your posts in this forum
You cannot post attachments in this forum

Search for:
Jump to:  
cron
Powered by phpBB® Forum Software © phpBB Group