neskimos.com

celebrating controller thumb for 00001100 years.
It is currently Fri Oct 18, 2019 5:26 pm

All times are UTC - 5 hours [ DST ]




Post new topic Reply to topic  [ 44 posts ]  Go to page 1, 2  Next
Author Message
 Post subject: The Tab Request Thread!!
PostPosted: Mon Mar 14, 2005 4:49 pm 
Offline
In-House Sax Machine
User avatar

Joined: Thu Dec 18, 2003 10:38 pm
Posts: 4922
Location: The Jungles of Mega Man 5
Looking for tabs?!? Request them here!

If you make tabs, feel free to post them on For Great Justice!

To start: On behalf of MrEvergleam, Bad Dudes Level 2

_________________
For Great Justice Mirror


Top
 Profile  
Reply with quote  
 Post subject:
PostPosted: Mon Mar 14, 2005 4:51 pm 
Offline
Angry Star
Angry Star
User avatar

Joined: Fri Jun 04, 2004 11:17 am
Posts: 5970
Location: Brooklyn, NY
I request Bionic Commando, the complete movement.

*leans back in chair and waits*

_________________
Image
360/PS3/PS4/Steam: basinpup
Fallout wrote:
What the gay?


Top
 Profile  
Reply with quote  
 Post subject:
PostPosted: Mon Mar 14, 2005 5:12 pm 
Offline
Angry Star
Angry Star
User avatar

Joined: Fri Jun 04, 2004 11:17 am
Posts: 5970
Location: Brooklyn, NY
and in case anybody wants, here's my tab for The Landing from Final Fantasy VIII that I've been working on. I know its not finished, but hey I don't have all the time in the world to tab songs.

Code:
Game: Final Fantasy VIII
Song: The Landing
Tabbed by: Greg "Bubble Man" Bilello

Guitar I:  (DADGBe) - 'Rhythm w/dist'
Guitar II: (DADGBe) - 'Lead w/dist'



Intro [Part I]

   Gtr I
e|------------------------------------------|
B|------------------------------------------|
G|------------------------------------------|
D|------------------------------------------|
A|-----2-3-2----------------2-3-2-----------|
D|-2-5-------5---7-4-5--2-5-------5---4-5-0-|
 |                                          |
 | Gtr II                                   |
e|------------------------------------------|
B|------------------------------------------|
G|------------------------------------------|
D|------------------------------------------|
A|------------------------------------------|
D|------------------------------------------|


   Gtr I
e|------------------------------------------|
B|------------------------------------------|
G|------------------------------------------|
D|------------------------------------------|
A|----2-3-2----------------2-3-2------------|
D|-2-5-------5---7-4-5--2-5-------5---4-5-0-|
 |                                          |
 | Gtr II                                   |
e|-3-----------2-3------0-------------------|
B|------------------------------------------|
G|---------------------------4--------------|
D|------------------------------------------|
A|------------------------------------------|
D|------------------------------------------|


   Gtr I
e|------------------------------------------|
B|------------------------------------------|
G|------------------------------------------|
D|------------------------------------------|
A|-----2-3-2----------------2-3-2-----------|
D|-2-5-------5---7-4-5--2-5-------5---4-5-0-|
 |                                          |
 | Gtr II                                   |
e|-7-----------5-7--------------------------|
B|----------------------8----5--------------|
G|------------------------------------------|
D|------------------------------------------|
A|------------------------------------------|
D|------------------------------------------|


   Gtr I
e|------------------------------------------|
B|------------------------------------------|
G|------------------------------------------|
D|------------------------------------------|
A|------2-3-2----------------2-3-2----------|
D|-2-5-------5---7-4-5--2-5-------5---------|
 |                                          |
 | Gtr II                                   |
e|-12---------10----------------------------|
B|---------------13-----12------------------|
G|------------------------------------------|
D|------------------------------------------|
A|------------------------------------------|
D|------------------------------------------|



Intro [Part II]

   Gtr I
e|-------------------------------------------|
B|-------------------------------------------|
G|-------------------------------------------|
D|-3--------------2---0----------------------|
A|------------------------2--3---0-----------|
D|------------------------------------5----3-|
 |                                           |
 | Gtr II                                    |
e|----------------7---8------7---8---10---12-|
B|---------7-8-10---------10-----------------|
G|-9-----------------------------------------|
D|-------------------------------------------|
A|-------------------------------------------|
D|-------------------------------------------|




Main Theme [Part I]

   Gtr I
e|---------------------------------------------------|
B|---------------------------------------------------|
G|---------------------------------------------------|
D|---------------------------------------------------|
A|-------0-------0-2-3-2-0-2---0-------------0-------|
D|-2-4-5---5-4-5-------------5---4-5-2-4-0-4---5-4---|
 |                                                   |
 | Gtr II                                            |
e|---------------------------------------------------|
B|---------------------------------------------------|
G|-------2-------2-4-5-4-2-4---2-------------2-------|
D|-2-4-5---5-4-5-------------5---4-5-2-4---4---5-4---|
A|---------------------------------------5-----------|
D|---------------------------------------------------|


   Gtr I
e|---------------------------------------------------|
B|---------------------------------------------------|
G|---------------------------------------------------|
D|---------------------------------------------------|
A|-------0-------0-2-3-2-0-2---0-----------------0---|
D|-2-4-5---5-4-5-------------5---4-5-2-4-0-2-4-5-----|
 |                                                   |
 | Gtr II                                            |
e|---------------------------------------------------|
B|---------------------------------------------------|
G|-------2-------2-4-5-4-2-4---2---------------------|
D|-2-4-5---5-4-5-------------5---4-5-2-4-----4-5-7---|
A|---------------------------------------5-7---------|
D|---------------------------------------------------|


   Gtr I
e|---------------------------------------------------|
B|---------------------------------------------------|
G|---------------------------------------------------|
D|-----------------0-1-0---0-------------------------|
A|---0-1-3-1-0-1-3-------3---1-3-0-1---0---0-3-1-0---|
D|-5---------------------------------5---3-----------|
 |                                                   |
 | Gtr II                                            |
e|---------------------------------------------------|
B|---------------------------------------------------|
G|-------5-------5-7-8-7-5-7---5-------------5-------|
D|-5-7-8---8-7-8-------------8---7-8-5-7---7---8-7---|
A|---------------------------------------8-----------|
D|---------------------------------------------------|


   Gtr I
e|---------------------------------------------------|
B|---------------------------------------------------|
G|---------------------------------------------------|
D|-----------------0-1-0---0-------------------------|
A|---0-1-3-1-0-1-3-------3---1-3-0-1---0------0-1-3--|
D|-5---------------------------------5---3--5--------|
 |                                                   |
 | Gtr II                                            |
e|---------------------------------------------------|
B|---------------------------------------------------|
G|-------5-------5-7-8-7-5-7---5---------------------|
D|-5-7-8---8-7-8-------------8---7-8-5-7------7-8-10-|
A|---------------------------------------8-10--------|
D|---------------------------------------------------|


Main Theme [Part II]

   Gtr I
e|-----------------------------------------------------|
B|-----------------------------------------------------|
G|---------------------------------------------------5-|
D|-0-------------------------------------------------5-|
A|-0-----------------------------0-2-0-2-3-2-3-5-3-2-3-|
D|-0-------------------------3-5-----------------------|
 |                                                     |
 | Gtr II                                              |
e|-----------------------------------------------------|
B|-----6-8-6-8-10-8-6---6------------------------------|
G|-7-9----------------9------7-------------------------|
D|------------------------10---------------------------|
A|-----------------------------------------------------|
D|-----------------------------------------------------|

   Gtr I
e|-----------------------------------------------------|
B|-----------------------------------------------------|
G|-----------------------------------------------------|
D|-----------------------------------------------------|
A|----------------------------------------0--2--3--5---|
D|----------------------------------4--6---------------|
 |                                                     |
 | Gtr II                                              |
e|-----------------------------------------------------|
B|-------9-11-9-11-13-11-9----9------------------------|
G|-10-12-------------------12------10------------------|
D|------------------------------13---------------------|
A|-----------------------------------------------------|
D|-----------------------------------------------------|



Main Theme [Part III]

   Gtr I
e|-----------------------------------------------------------------|
B|-----------------------------------------------------------------|
G|-----------------------------------------------------------------|
D|-9-7--4-7-8-9-7--4-7-8-9-7--4-7-8-9-7--4-7-8-9--4-7-8-9-7--4-7-8-|
A|-9-7--4-7-8-9-7--4-7-8-9-7--4-7-8-9-7--4-7-8-9--4-7-8-9-7--4-7-8-|
D|-9-7--4-7-8-9-7--4-7-8-9-7--4-7-8-9-7--4-7-8-9--4-7-8-9-7--4-7-8-|
 |                                                                 |
 | Gtr II                                                          |
e|-----------------------14---14---12----14---15--15----12--14-----|
B|-----------------------------------------------------------------|
G|-----------------------------------------------------------------|
D|-----------------------------------------------------------------|
A|-----------------------------------------------------------------|
D|-----------------------------------------------------------------|


   Gtr I
e|-----------------------------------------------------------------|
B|-----------------------------------------------------------------|
G|-----------------------------------------------------------------|
D|-9-7--4-7-8-9-7--4-7-8-9-7--4-7-8-9-7--4-7-8-9--4-7-8-9-7--4-7-8-|
A|-9-7--4-7-8-9-7--4-7-8-9-7--4-7-8-9-7--4-7-8-9--4-7-8-9-7--4-7-8-|
D|-9-7--4-7-8-9-7--4-7-8-9-7--4-7-8-9-7--4-7-8-9--4-7-8-9-7--4-7-8-|
 |                                                                 |
 | Gtr II                                                          |
e|-----------------------15---14---17----15---14--15----12--14-----|
B|-----------------------------------------------------------------|
G|-----------------------------------------------------------------|
D|-----------------------------------------------------------------|
A|-----------------------------------------------------------------|
D|-----------------------------------------------------------------|


   Gtr I
e|----------------------------------|
B|----------------------------------|
G|----------------------------------|
D|-9-7--4-7-8-9-7--4-7-8-9-7--4-7-8-|
A|-9-7--4-7-8-9-7--4-7-8-9-7--4-7-8-|
D|-9-7--4-7-8-9-7--4-7-8-9-7--4-7-8-|
 |                                  |
 | Gtr II                           |
e|-19-17---15-14--12----------12-15-|
B|-------------------15-14-15-------|
G|----------------------------------|
D|----------------------------------|
A|----------------------------------|
D|----------------------------------|


Main Theme [Part IV]

   Gtr I
e|-------------------------------------------------|
B|-------------------------------------------------|
G|-------------------------------------------------|
D|-0-2-3-0-2-3-0-2-3-2-----0-2-3-0-2-3-0-2-3-2-----|
A|---------------------3-0---------------------3-0-|
D|-------------------------------------------------|
 |                                                 |
 | Gtr II                                          |
e|--------------------------14-----14--------------|
B|-18----18----16----18------------------16-----18-|
G|-------------------------------------------------|
D|-------------------------------------------------|
A|-------------------------------------------------|
D|-------------------------------------------------|

   Gtr I
e|-------------------------------------------------|
B|-------------------------------------------------|
G|-------------------------------------------------|
D|-0-2-3-0-2-3-0-2-3-2-----0-2-3-0-2-3-0-2-3-2-----|
A|---------------------3-0---------------------3-0-|
D|-------------------------------------------------|
 |                                                 |
 | Gtr II                                          |
e|-14----------16----14------------14--------------|
B|-------18-----------------18-----------16-----18-|
G|-------------------------------------------------|
D|-------------------------------------------------|
A|-------------------------------------------------|
D|-------------------------------------------------|

_________________
Image
360/PS3/PS4/Steam: basinpup
Fallout wrote:
What the gay?


Top
 Profile  
Reply with quote  
 Post subject:
PostPosted: Mon Mar 14, 2005 7:03 pm 
Offline
Ptooie
Ptooie
User avatar

Joined: Wed Aug 25, 2004 6:24 pm
Posts: 488
Well, here's what I got for Zelda Dungeon so far. I suck at tabbing, but it sounds right to me.

Code:
Intro w/ delay
E|---------------------------------------------------------------------|
B|---------------------------------------------------------------------|
G|---------------------------------------------------------------------|
D|-------0-------0-------0-------0-------0-------0-------0-------0-----|
A|-----1-------1-------1-------1-------1-------1-------1-------1-------|
D|-5-5-----5-5-----5-5-----5-5-----4-4-----4-4-----4-4-----4-4---------|


E|---------------------------------------------------------------------|
B|---------------------------------------------------------------------|
G|---------------------------------------------------------------------|
D|-------0-------0-------0-------0-------0-------0-------0-------0-----|
A|-----1-------1-------1-------1-------1-------1-------1-------1-------|
D|-3-3-----3-3-----3-3-----3-3-----2-2-----2-2-----2-2-----2-2---------|


E|---------------------------------------------------------------------|
B|---------------------------------------------------------------------|
G|-------0-------0-------0-------0-------0-------0-------0-------0-----|
D|-----1-------1-------1-------1-------1-------1-------1-------1-------|
A|---------------------------------------------------------------------|
D|-1-1-----1-1-----1-1-----1-1-----0-0-----0-0-----0-0-----0-0---------|


E|-------------------------------|
B|-------------------------------|
G|-------------------------------|
D|-6-----------------------------|
A|-4-----------------------------|
D|-------------------------------|
   ^ ring out

Verse 1
E|-------------------------------------------------|
B|-------------------------------------------------|
G|---------7--6------------------5--4--------------|
D|-5----8--------4-------3----7--------2-----------|
A|-------------------------------------------------|
D|-------------------------------------------------|


E|-------------------------------------------------|
B|-------------------------------------------------|
G|-----------8--7-------------7--6-----------------|
D|-1------5----------------5-----------------------|
A|------------------5---------------4--------------|
D|-------------------------------------------------|
                                    ^this is only in the first time this verse is played, every other time you skip this 4 note and go right to the breakdown

Verse 2 (same as 1 but up one octave)
E|---------------------------------------------------------|
B|-----------15--14----------------------13--12------------|
G|-12----15----------11--------10----14----------9---------|
D|---------------------------------------------------------|
A|---------------------------------------------------------|
D|---------------------------------------------------------|

E|---------------------------------------|
B|----------16--15--------------15--14---|
G|-8----12------------------12-----------|
D|------------------12-------------------|
A|---------------------------------------|
E|---------------------------------------|

Breakdown
E|-----------------------------------------------9----9-12-9-12-18--|
B|---------------------------------8---8-10-8-10---10---------------|
G|---------------------6---6-9-6-9---9------------------------------|
D|---------5---5-8-5-8---8------------------------------------------|
A|-4-7-4-7---7------------------------------------------------------|
E|------------------------------------------------------------------|


Order:

Intro
Verse 1
Verse 2
Breakdown
Verse 1
Breakdown

_________________
Image
"That's how fetishes start. You think, "Oh, that popup is digusting, yet intriguing... ". The next day you're dressed up like a pony and you have a pickle jar up your ass"


Top
 Profile  
Reply with quote  
 Post subject:
PostPosted: Mon Mar 14, 2005 8:15 pm 
Offline
Paragoomba
Paragoomba
User avatar

Joined: Fri Aug 13, 2004 3:03 pm
Posts: 119
Location: Paseo on Motavia
Captain Skyhawk - Opening theme

You know you want to. I have the boss theme for guitar done if anyone wants it.

_________________
Image


Top
 Profile  
Reply with quote  
 Post subject:
PostPosted: Mon Mar 14, 2005 11:10 pm 
Offline
Goomba
Goomba
User avatar

Joined: Sun Mar 06, 2005 12:11 am
Posts: 52
Location: The one place you didn't look
Any bass tabs would be welcome.


Top
 Profile  
Reply with quote  
 Post subject:
PostPosted: Mon Mar 14, 2005 11:22 pm 
Offline
In-House Sax Machine
User avatar

Joined: Thu Dec 18, 2003 10:38 pm
Posts: 4922
Location: The Jungles of Mega Man 5
...remember, if you finish tabs... PLEASE, post them to For Great Justice! so they'll live forever.

_________________
For Great Justice Mirror


Top
 Profile  
Reply with quote  
 Post subject:
PostPosted: Mon Mar 14, 2005 11:47 pm 
Offline
Angry Star
Angry Star
User avatar

Joined: Fri Jun 04, 2004 11:17 am
Posts: 5970
Location: Brooklyn, NY
any tabs? or just NESkimo tabs?

_________________
Image
360/PS3/PS4/Steam: basinpup
Fallout wrote:
What the gay?


Top
 Profile  
Reply with quote  
 Post subject:
PostPosted: Tue Mar 15, 2005 12:34 am 
Offline
In-House Sax Machine
User avatar

Joined: Thu Dec 18, 2003 10:38 pm
Posts: 4922
Location: The Jungles of Mega Man 5
NESkimo/Videogame

_________________
For Great Justice Mirror


Top
 Profile  
Reply with quote  
 Post subject:
PostPosted: Thu Mar 17, 2005 8:22 am 
Offline
Angry Sun
Angry Sun
User avatar

Joined: Tue Oct 19, 2004 8:36 am
Posts: 3867
Location: Brisbane, Australia
Bubble Man wrote:
I request Bionic Commando, the complete movement.

*leans back in chair and waits*


I have started that, but after i started, my guitar broke so it was in getting fixed and i just got it back today :D

_________________
Image


Top
 Profile  
Reply with quote  
 Post subject:
PostPosted: Thu Mar 17, 2005 8:27 am 
Offline
Angry Star
Angry Star
User avatar

Joined: Fri Jun 04, 2004 11:17 am
Posts: 5970
Location: Brooklyn, NY
yeah man, i remembered that you were doing it, keep it up I want to learn that whole song so I can rock out for 20 minutes...

_________________
Image
360/PS3/PS4/Steam: basinpup
Fallout wrote:
What the gay?


Top
 Profile  
Reply with quote  
 Post subject:
PostPosted: Thu Mar 17, 2005 3:55 pm 
Offline
Buzzy Beetle
Buzzy Beetle

Joined: Wed Sep 01, 2004 12:03 am
Posts: 507
Location: Swarthmore, PA
http://videogamejam.com/nes.shtml

This site has a bunch of GAME music tabs, not just nes. They also have midi files to dl so u can here the song. The tabs are very basic and not so good but whatever, u could always think to that sight if u wanted to.

_________________
Napalm Man wrote:
chewey?" He was mentally handicapped.


Top
 Profile  
Reply with quote  
 Post subject:
PostPosted: Thu Mar 17, 2005 4:04 pm 
Offline
Buzzy Beetle
Buzzy Beetle

Joined: Wed Sep 01, 2004 12:03 am
Posts: 507
Location: Swarthmore, PA
Quote:
stemage - tourian / motherbrain
tabbed by noah petrie
4 string bass (gdae)
|--------------
|--------------
|--------------
|3--2-0-5-1-444

|-------------------------
|-------------------------
|-----3-2--1--------------
|3--2----2----3--2-0-5-1-4

|-------------------------------------
|-------------------------------------
|-------3-2--1-------------------------
|x-3--2----2----3-3-3-3-3-3--2-0-5-1-4

|-------------------------------------
|-------------------------------------
|------------------3333-2222------11111111
|33333333-2222-------------2222---------

|------------------------------------------
|------------------------------------------
|------------------------------------------
|33333333-2222-0000-5555-1111-44444444----3

Break

|-----------
|-----------
|-----------
|777-----666

|-------------------------------
|-------------------------------
|-------------------------------
|777-777-777-777-666-666-666-666

|-----------------------------
|-----------------------------
|-----------------------------
|777\-777\-777\-666\-666\-666\

|---------------------------
|---------------------------
|---------------------------
|777\-777\-777\-6-6-6666-666

|-------------------------------------
|-------------------------------------
|------------------3333-2222------11111111
|33333333-2222------------2222---------

|-------------------------------------
|-------------------------------------
|-------------------------------------
|33333333-2222-0000-5555-1111-44444444

|-------------------------------------
|-------------------------------------
|-----------------3333-2222------11111111
|33333333-2222-----------2222---------

|-------------------------------------
|-------------------------------------
|-------------------------------------
|33333333-2222-0000-5555-1111-44444444

Break

|---------------------------------------------------------------------------------------
|---------------------------------------------------------------------------------------
|---------------------------------------------------------------------------------------
|3h4h3h2-2^-3h4h3h2-2^-4h5h4h3-2^-4h5h4h3-2^-5h6h5h4-2^-5h6h5h4-2^-3h4h3h2-2^-3h4h3h2-2^

|---------------------------------------------------------------------------
|---------------------------------------------------------------------------
|---------------------------------------------------------------------------
|3h4h3h2-2^-3h4h3h2-2^-4h5h4h3-2^-4h5h4h3-2^-5h6h5h4-2^-5h6h5h4-2^-3-4-3h3-1

|------------------------------------------------------------
|------------------------------------------------------------
|------------------------------------------------------------
|333-333-333333-444-444-444444-555-555-5555555-333-333-3333333

|------------------------------------------------
|------------------------------------------------
|---3---3---3---3---4---4---4---4---5---5---5---5
|3/\-3/\-3/\-3/\-4/\-4/\-4/\-4/\-5/\-5/\-5/\-5/\

_________________
Napalm Man wrote:
chewey?" He was mentally handicapped.


Top
 Profile  
Reply with quote  
 Post subject:
PostPosted: Thu Mar 17, 2005 4:05 pm 
Offline
Angry Star
Angry Star
User avatar

Joined: Fri Jun 04, 2004 11:17 am
Posts: 5970
Location: Brooklyn, NY
use the code tag if you're trying to line it up

_________________
Image
360/PS3/PS4/Steam: basinpup
Fallout wrote:
What the gay?


Top
 Profile  
Reply with quote  
 Post subject:
PostPosted: Thu Mar 17, 2005 4:23 pm 
Offline
Buzzy Beetle
Buzzy Beetle

Joined: Wed Sep 01, 2004 12:03 am
Posts: 507
Location: Swarthmore, PA
Code:
Neskimos - Simon's Theme
Tabbed by - Noah Petrie
4 string bass (gdae)


bass comes in after bells

then

Intro [1:20]
|------
|------ X 1
|7~~~~~
|------


Fill [1:33] & again at [1:55]
|------------------------------
|------------------------------
|8~------------------------8~-- X 1
|------------------------------


Main Riff [2:04]
|--------------x2---------------x2
|--------------x2---------------x2
|0----4--7-4-x2x2---------------X2   x4
|--------------x2--0----5--9-5--x2

Chorus [2:39]
|----------------------------------------
|----------------------------------------
|8--8-7--7-6--6-8--8-8--5-5--5-4-3-3-4--7 X 2
|----------------------------------------


Break 1 [2:57]
|-------------------
|-------------------
|-078-7-6-5-4-5--6-7 X 3
|-------------------

and on the last one do this
|----------------------
|----------------------
|-078-7-6-5-4-5--6-6676 X 1
|----------------------

Break 2 [3:16]
|-----------------------------------------
|-----------------------------------------
|555-5---------------111-1-333-3-111-1-333X 2
|------333-555-5-333----------------------

|-------------
|-------------
|------------- X2
|5-4-2-2-7-7-2

Main Riff [3:43]
|--------------x2---------------x2
|--------------x2---------------x2
|0----4--7-4-x2x2---------------X2   x4
|--------------x2--0----5--9-5--x2


Chorus [4:01]
|-----------------------------------------------------
|-----------------------------------------------------
|8--8-7--7-6--6-8--8-8--5-5--5-4-3-3-4//7 X 2
|-----------------------------------------------------



Break 1 [4:19]
|-------------------
|-------------------
|-078-7-6-5-4-5--6-7 X 3
|-------------------

and on the last one do this
|-------------------------------
|--------------------------------
|-078-7-6-5-4-5--6-6676 X 1
|-------------------------------


Break 2 [4:37]
|-----------------------------------------
|-----------------------------------------
|555-5---------------111-1-333-3-111-1-333X 2
|------333-555-5-333----------------------

|-------------
|-------------
|------------- X2
|5-4-2-2-7-7-2/

Main Riff [5:04]
|--------------x2---------------x2
|--------------x2---------------x2
|0----4--7-4-x2x2---------------X2   x4
|--------------x2--0----5--9-5--x2

Heavy Part ( I Use Distortion Here ) [5:40]
|--------------------------------------------------------------------------
|--------------------------------------------------------------------------
|555-5-xxxx--------------------------111-1-xxxx-333-3-111-1-xxxx-333X 3
|--------------333-555-5-xxxx-333-------------------------------------

Outro ( Distortion Here Too )[6:17]
|--------------x2---------------x1
|--------------x2---------------x1
|0----4--7-4-x2x2---------------X1   x1
|--------------x2--0----5--9-5--x1
In my above post it is aligned corectly. I wanted it to be close together like that cause here not alot of wait.
anyway this is a neskimos song that Id LOVE to see on the FGJ site

_________________
Napalm Man wrote:
chewey?" He was mentally handicapped.


Last edited by papercuts on Thu Mar 17, 2005 4:27 pm, edited 1 time in total.

Top
 Profile  
Reply with quote  
 Post subject:
PostPosted: Thu Mar 17, 2005 4:24 pm 
Offline
Angry Star
Angry Star
User avatar

Joined: Fri Jun 04, 2004 11:17 am
Posts: 5970
Location: Brooklyn, NY
I love their cover of 'The Drawbridge/Simon's Theme' its one of my favorites...

_________________
Image
360/PS3/PS4/Steam: basinpup
Fallout wrote:
What the gay?


Top
 Profile  
Reply with quote  
 Post subject:
PostPosted: Thu Mar 17, 2005 4:41 pm 
Offline
Buzzy Beetle
Buzzy Beetle

Joined: Wed Sep 01, 2004 12:03 am
Posts: 507
Location: Swarthmore, PA
agreed, im figuring out the minibosses castlevania songs right now and then ill tab them and out them here, and then some more neskimos! my tabs will be bass mind you.

_________________
Napalm Man wrote:
chewey?" He was mentally handicapped.


Top
 Profile  
Reply with quote  
 Post subject:
PostPosted: Thu Mar 17, 2005 10:55 pm 
Offline
Goomba
Goomba
User avatar

Joined: Sun Mar 06, 2005 12:11 am
Posts: 52
Location: The one place you didn't look
I'm working on the Minibosses Wizards and Warriors cover for bass right now.


Top
 Profile  
Reply with quote  
 Post subject:
PostPosted: Fri Mar 18, 2005 3:02 pm 
Offline
The Supreme High Lord of the Sniff
User avatar

Joined: Sun Jan 18, 2004 5:33 pm
Posts: 14670
Location: Confirmed, Sending Supplies
http://www.ice-climbers.com/tabs.htm
lots of NES tabs by Swedish premere the Ice Climbers

_________________
Image
illblamesum1else wrote:
Snifit is the King of Forever.


Top
 Profile  
Reply with quote  
 Post subject:
PostPosted: Fri Mar 18, 2005 10:29 pm 
Offline
Nameless NESkomic Artist
User avatar

Joined: Sat Sep 27, 2003 5:15 pm
Posts: 16881
Location: St. Augustine, FL
^Great tabs, too, I use em a lot :D

_________________
Image

ExPostFacto wrote:
For someone who uses the ":3" emoticon way too much you're a scary motherfucker.


Top
 Profile  
Reply with quote  
 Post subject:
PostPosted: Sun Mar 20, 2005 11:12 am 
Offline
Goomba
Goomba
User avatar

Joined: Wed Feb 09, 2005 8:03 pm
Posts: 75
Bubble Man wrote:
and in case anybody wants, here's my tab for The Landing from Final Fantasy VIII that I've been working on. I know its not finished, but hey I don't have all the time in the world to tab songs.



Two Thumbs up! Awesome job.

I need some drum tabs :D

Specifically, I'd like contra-base and the drawbridge simon theme from castlevania 4.

_________________
In dawn of the dead (the old one), if the dead came back to life, where was Jim Morrison or Adolf Hitler? Wouldn't they have come back too? What about Indians?


Top
 Profile  
Reply with quote  
 Post subject:
PostPosted: Mon Mar 21, 2005 10:29 pm 
Offline
Ptooie
Ptooie
User avatar

Joined: Wed Aug 25, 2004 6:24 pm
Posts: 488
Now I'm actually gonna use this thread for what it's for and request tabs...either Mega Man 2 Wily's Castle or Mega Man 3 Wily part two.

_________________
Image
"That's how fetishes start. You think, "Oh, that popup is digusting, yet intriguing... ". The next day you're dressed up like a pony and you have a pickle jar up your ass"


Top
 Profile  
Reply with quote  
 Post subject:
PostPosted: Wed Mar 23, 2005 6:34 pm 
Offline
Nameless NESkomic Artist
User avatar

Joined: Sat Sep 27, 2003 5:15 pm
Posts: 16881
Location: St. Augustine, FL
Okay, here's a tab that I edited from the Ice Climbers page. They use the harmony part in the song, instead of the melody part, so I changed it around
Zelda 2: Town
Code:

-----10--8---------------|--13-12-------------------------12---13-12---------
-------------------10----|--------15-13-----------12--13-------------------13
-9-----------10-12----12-|----------------12--14---------------------14------
-------------------------|---------------------------------------------------
-------------------------|---------------------------------------------------
-------------------------|---------------------------------------------------
          Intro                                                               

----12---15-13-12----12---13-12------13-17-19-17-15--|--13-12----------------
-15---------------15------------15-------------------|--------15-13----------
-----------------------------------------------------|----------------12--14-
-----------------------------------------------------|-----------------------
-----------------------------------------------------|-----------------------
-----------------------------------------------------|-----------------------
                                                                             

---------12---13-12----------------------15------13--12--------|
-12--13------------------13-----13---12------15------------13--|
--------------------14-------13-------------------------12-----|
---------------------------------------------------------------|
---------------------------------------------------------------|
---------------------------------------------------------------|       
(This is the only part I take credit for tabbing [even tho it's mostly just Power Tab doin the work] ) :
|--------17-(17)-------17-|-(17)-------19-(19)-------19-|
|-------------------------|-----------------------------|
|-------------------------|-----------------------------|
|------15-----------15----|---------15------------15----|
|---17-----------17-------|------17------------17-------|
|-------------------------|-----------------------------|


|-(19)--------------------|---------------------------|
|------------20-(20)---20-|-(20)-20-19-18-17-16-15-13-|
|-------------------------|---------------------------|
|--------14---------------|---------------------------|
|------14-----------------|---------------------------|
|-------------------------|---------------------------|


|--------17-(17)-------17-|-(17)-------19-(19)-------19-|
|-------------------------|-----------------------------|
|-----10------------------|-----------------------------|
|--12---------------15----|---------15------------15----|
|----------------17-------|------17------------17-------|
|-------------------------|-----------------------------|


|-(19)--------------------|---------------------------|
|------------20-(20)---20-|-(20)-20-19-18-17-16-15-13-|
|-------------------------|---------------------------|
|-------------------------|---------------------------|
|---------19--------------|---------------------------|
|------19-----------------|---------------------------|

                                                                             

|----13-12----13--------------------17-15----
|----------15-----------------------------18-
|--------------------12-10----12-------------
|--------------------------14----------------
|--------------------------------------------
|--------------------------------------------
                                                                             

-17----------------|----------11-10-----10---------10-8-----8-|--------------
----------------13-|--11-13----------13-----9-11---------11---|----11--9-11--
-------13-12-------|------------------------------------------|-x2-----------
-------------15----|------------------------------------------|--------------
-------------------|------------------------------------------|--------------
-------------------|------------------------------------------|--------------
                                                                             

-------------15--------------------------------------------------------------
-9-----12-15-----------------------------------------------------------------
----12-----------------------------------------------------------------------
-----------------------------------------------------------------------------
-----------------------------------------------------------------------------
-----------------------------------------------------------------------------

_________________
Image

ExPostFacto wrote:
For someone who uses the ":3" emoticon way too much you're a scary motherfucker.


Top
 Profile  
Reply with quote  
 Post subject:
PostPosted: Wed Mar 23, 2005 8:31 pm 
Offline
VAN DAMMAGE
User avatar

Joined: Sat Aug 21, 2004 9:12 pm
Posts: 9336
Location: Gotham City
I request: Pac-Man!

_________________
Image


Top
 Profile  
Reply with quote  
 Post subject:
PostPosted: Wed Mar 23, 2005 10:31 pm 
Offline
Ptooie
Ptooie
User avatar

Joined: Wed Aug 25, 2004 6:24 pm
Posts: 488
I'm actually starting to tab out Contra Jungle right now. Don't know how far I'll get but I got the main riff and stuff.

TheBatman wrote:
I request: Pac-Man!


If you have the PowerTab software...then check this out! :P

_________________
Image
"That's how fetishes start. You think, "Oh, that popup is digusting, yet intriguing... ". The next day you're dressed up like a pony and you have a pickle jar up your ass"


Top
 Profile  
Reply with quote  
Display posts from previous:  Sort by  
Post new topic Reply to topic  [ 44 posts ]  Go to page 1, 2  Next

All times are UTC - 5 hours [ DST ]


Who is online

Users browsing this forum: No registered users and 1 guest


You cannot post new topics in this forum
You cannot reply to topics in this forum
You cannot edit your posts in this forum
You cannot delete your posts in this forum
You cannot post attachments in this forum

Search for:
Jump to:  
cron
Powered by phpBB® Forum Software © phpBB Group