neskimos.com

celebrating controller thumb for 00001100 years.
It is currently Sun Jun 16, 2019 2:43 pm

All times are UTC - 5 hours [ DST ]




Post new topic Reply to topic  [ 18 posts ] 
Author Message
PostPosted: Sun May 08, 2005 2:28 am 
Offline
Pirahna Plant
Pirahna Plant
User avatar

Joined: Sat Apr 16, 2005 9:14 pm
Posts: 344
Location: St Augustine, Fl
The topic's title says it all. I wanna start trying to get Bionic Commando tabbed out. I've sorta figured out the end of Movement II Part A/Begining of Part B, but I wanna figure out the whole song for Movement II A, and if I have the patience, all of Movement I.

Anyone got the grapes to give me a hand with it?

_________________
Image
Add 4495 to my post count, and then stfu about your stupid post count, dammit!


Top
 Profile  
Reply with quote  
 Post subject:
PostPosted: Mon May 09, 2005 5:06 pm 
Offline
Pirahna Plant
Pirahna Plant
User avatar

Joined: Sat Apr 16, 2005 9:14 pm
Posts: 344
Location: St Augustine, Fl
Okay, I think I've got some of it right so far, I hope some of you will jump in and help me out if I'm wrong:
Code:
|----------------------|
|----------------------|
|----------------------|
|----------------------|
|-000-333-55-66-55-33--|
|----------------------|


|---------------------------------------|
|---------------------------------------|
|---------------------------------------|
|--2--2--2--2-0-2----------011010-------|
|-----------------3-00~-0-3--------3-0---|
|-------------------------------------3~|

That's all I've got so far, the end of part A and the begining of part B


Hey, could one of the Neskimos (or a really smart Neskimite) tell me what notes they're playing in Part A starting at 1:53 of the song?

_________________
Image
Add 4495 to my post count, and then stfu about your stupid post count, dammit!


Top
 Profile  
Reply with quote  
 Post subject:
PostPosted: Mon May 09, 2005 5:52 pm 
Offline
Boom-Boom
Boom-Boom
User avatar

Joined: Mon Apr 11, 2005 9:36 am
Posts: 2112
Location: In an underwater cavern of some sort with lots of spikes...
that sounds pretty correct...

I'll help you out a tad Nameless, seeing as how no one was responding, I just figured out this little thing in the beggining of part II in like 30 seconds:

Code:

|----------------------------------------------------------|
|-----------6---5-6-5----------------6---5-6-5-------------|
|---------7------------5-7---------7-------------5-7-------|
|--5-7-8--------------------5-7-8--------------------------|
|----------------------------------------------------------|
|----------------------------------------------------------|


_________________
Image
Add 1519 to my post count...
ohGod_Fallout_ohGod wrote:
What the gay?


Top
 Profile  
Reply with quote  
 Post subject:
PostPosted: Mon May 09, 2005 5:59 pm 
Offline
Pirahna Plant
Pirahna Plant
User avatar

Joined: Sat Apr 16, 2005 9:14 pm
Posts: 344
Location: St Augustine, Fl
Bubble Man 2: The Sequel wrote:
that sounds pretty correct...

I'll help you out a tad Nameless, seeing as how no one was responding, I just figured out this little thing in the beggining of part II in like 30 seconds:

Code:

|----------------------------------------------------|
|----------6---5-6-5----------------6---5-6-5--------|
|--------7------------5-7---------7-------------5-7--|
|-5-7-8--------------------5-7-8---------------------|
|----------------------------------------------------|
|----------------------------------------------------|


Shwing! Just what I needed, dude! I have the original midi for it, so I just needed the right octave for the song, thanks, guy :wink: Now begins the teadious work of taking all of the stuff from the original song and lowering it so it sounds like the NESkimos version of it :mrgreen: Weee!

_________________
Image
Add 4495 to my post count, and then stfu about your stupid post count, dammit!


Top
 Profile  
Reply with quote  
 Post subject:
PostPosted: Mon May 09, 2005 6:11 pm 
Offline
Boom-Boom
Boom-Boom
User avatar

Joined: Mon Apr 11, 2005 9:36 am
Posts: 2112
Location: In an underwater cavern of some sort with lots of spikes...
I figured out the rest of that intro in the last 10 minutes, but I'm going in the shower and then I'm going to eat dinner, so I'll tab it out later tonight..

_________________
Image
Add 1519 to my post count...
ohGod_Fallout_ohGod wrote:
What the gay?


Top
 Profile  
Reply with quote  
 Post subject:
PostPosted: Mon May 09, 2005 7:09 pm 
Offline
Boom-Boom
Boom-Boom
User avatar

Joined: Mon Apr 11, 2005 9:36 am
Posts: 2112
Location: In an underwater cavern of some sort with lots of spikes...
ok, here's the whole little intro to Part II, that I just figured out:

Code:
|----------------------------------------------------|
|----------6---5-6-5----------------6---5-6-5--------|
|--------7------------5-7---------7-------------5-7--|
|-5-7-8--------------------5-7-8---------------------|
|----------------------------------------------------|
|----------------------------------------------------|

|----------6---5-6-5-------3-5-3---------------------|
|--------8------------6------------4-----3-----------|
|-5-7-8-----------------7------------5-----5-0-7-----|
|----------------------------------------------------|
|----------------------------------------------------|
|----------------------------------------------------|

|----------------------------------------------------|
|----------6---5-6-5----------------6---5-6-5--------|
|--------7------------5-7---------7-------------5-7--|
|-5-7-8--------------------5-7-8---------------------|
|----------------------------------------------------|
|----------------------------------------------------|

|----------6-6-6-----------8-8-8---6-5---------------|
|--------8---------------8---------------8-----------|
|-5-7-8----------5-7-8-------------------------------|
|----------------------------------------------------|
|----------------------------------------------------|
|----------------------------------------------------|



Hey... we can do this Nameless, just do it piece by piece...

_________________
Image
Add 1519 to my post count...
ohGod_Fallout_ohGod wrote:
What the gay?


Top
 Profile  
Reply with quote  
 Post subject:
PostPosted: Mon May 09, 2005 8:46 pm 
Offline
Pirahna Plant
Pirahna Plant
User avatar

Joined: Sat Apr 16, 2005 9:14 pm
Posts: 344
Location: St Augustine, Fl
Cool guy, thanks for helpin me out, I've got some homework and stuff tonight, but I'll do much more on it tomorrow, and we'll tabliturically (probably not even a real word, but who cares) kick this song squ-ware in teh nutz :\m/:

_________________
Image
Add 4495 to my post count, and then stfu about your stupid post count, dammit!


Top
 Profile  
Reply with quote  
 Post subject:
PostPosted: Mon May 09, 2005 9:45 pm 
Offline
Boom-Boom
Boom-Boom
User avatar

Joined: Mon Apr 11, 2005 9:36 am
Posts: 2112
Location: In an underwater cavern of some sort with lots of spikes...
I'll do some more tomorrow too... I'll just continue with Movement II and keep doing that...

_________________
Image
Add 1519 to my post count...
ohGod_Fallout_ohGod wrote:
What the gay?


Top
 Profile  
Reply with quote  
 Post subject:
PostPosted: Mon May 09, 2005 10:39 pm 
Offline
Pirahna Plant
Pirahna Plant
User avatar

Joined: Sat Apr 16, 2005 9:14 pm
Posts: 344
Location: St Augustine, Fl
Yea, I'm just really trying to figure out Movement II the most right now, because I've had it stuck in my have for like a month now, and ussually the only way I can really get a song out of my head is by learning how to play it. Plus, it's just such a cool song. I need to figure out what they're playing starting at 1:53 in the song, cuz I love that part :D

*Edit/Update...Eddate! Updit...Eh, fuck it.*

I figured out a little bit more, I'll post it once I get the whole riff figured out. It's the one that starts out at 1:53, I've got the first two chord-things they do down :wink:

*edit some more* Sweet! I figured out a huge chunk of it, just the little bit starting at 1:53 remains, but I think I'm getting close to that, :D I'll have tabs up in about 10 or 15 minutes or so if I just sit here and nail em out :wink:

_________________
Image
Add 4495 to my post count, and then stfu about your stupid post count, dammit!


Top
 Profile  
Reply with quote  
 Post subject:
PostPosted: Tue May 10, 2005 9:39 pm 
Offline
Pirahna Plant
Pirahna Plant
User avatar

Joined: Sat Apr 16, 2005 9:14 pm
Posts: 344
Location: St Augustine, Fl
I'm making a new post because I don't feel like editing the last one anymore. Here's what I got from combining what I found and what Bubbleman contributed:

Code:
4/4

|----------------------------------------------------|
|----------6---5-6-5----------------6---5-6-5--------|
|--------7------------5-7---------7-------------5-7--|
|-5-7-8--------------------5-7-8---------------------|
|----------------------------------------------------|
|----------------------------------------------------|

|----------6---5-6-5-------3-5-3------------------------|
|--------8------------6-----------4-----3---------------|
|-5-7-8-----------------7-----------5-----5-0-7-*7/8/7~-|
|-------------------------------------------------------|
|-------------------------------------------------------|
|-------------------------------------------------------|
(*Second time through)

|----------------------------------------------------|
|----------6---5-6-5----------------6---5-6-5--------|
|--------7------------5-7---------7-------------5-7--|
|-5-7-8--------------------5-7-8---------------------|
|----------------------------------------------------|
|----------------------------------------------------|

|----------6-6-6-----------8-8-8---6-5------|
|--------8---------------8---------------8~-|
|-5-7-8----------5-7-8----------------------|
|-------------------------------------------|
|-------------------------------------------|
|-------------------------------------------|
(gets loud the first time through right here, intensifies again the second time through:)
|---------10-11-11-11--10-11-10-8----8~-|
|-8-10-11-------------------------11----|
|---------------------------------------|
|---------------------------------------|
|---------------------------------------|
|---------------------------------------|

|-11-11-11--10-11-10-8---8~-|
|---------------------11----|
|---------------------------|
|---------------------------|
|---------------------------|
|---------------------------|

|-10-10-10--8-10-8------------------10-|
|-----------------11-10-11-8---8-11----|
|--------------------------------------|
|--------------------------------------|
|--------------------------------------|
|--------------------------------------|

|--15--15-18--17-15--15--14~--15~----|
|------------------------------------|
|------------------------------------|
|------------------------------------|
|------------------------------------|
|------------------------------------|

Everything repeats once and then goes to this:

(Starting at 1:53)
|-----------------------------------|
|----------------------3-------3----|
|-----2-------2----------3-------3--|
|-------3-------3----5-------5------|
|---5-------5------3-------3--------|
|-3-------3-------------------------|

|-----------------------------------|
|-----------------------------------|
|-----------------------------------|
|--not-sure-yet--:(-----------------|
|-----------------------------------|
|-----------------------------------|

|-----------------------------------|
|----------------------3-------3----|
|-----2-------2----------3-------3--|
|-------3-------3----5-------5------|
|---5-------5------3-------3--------|
|-3-------3-------------------------|

|-----1-------3---------------------|
|-----------------------------------|
|---3--3----5---5---2----------3~---|
|-1-------3-------------------------|
|-----------------5---5-----5-------|
|---------------3---------3---------|
(plays once by itself, then the other guitar joins in playing the main part)

Main Part played again once through, hold the |--15~--| as a whole note, let it fade out for another measure durring an 8 measure rest for the guitar parts, and then, this comes in:

(palm muted)
|-----------------------|
|-----------------------|
|-----------------------| x3
|-----------------------|
|-000-333-555-666-55-33-|
|-----------------------|

|-----------------------|
|-----------------------|
|-----------------------|
|-----------------------|
|-000-333-555-666-55-3~-|
|-----------------------|

(played again normally while the other guitar "Breaks down")
After "Break Down", play again, a lot harder and louder, either as one guitar doing a power chord of the same notes, or as two guitars with one guitar playing it an octave higher:

|-----------------------|
|-----------------------|
|-222-555-777-888-77-55-|
|-222-555-777-888-77-55-|
|-000-333-555-666-55-33-|
|-----------------------|

Or maybe like this:

|-----------------------|
|-----------------------|
|-222-555-777-888-77-55-|
|-----------------------|
|-000-333-555-666-55-33-|
|-----------------------|

And then in comes the lead:
|---------------------------------------|
|---------------------------------------|
|---------------------------------------|
|--2--2--2--2-0-2----------011010-------|
|-----------------3-00~-0-3--------3-0-|
|-------------------------------------3~|


Only one part I'm unsure about, sooo, I'll have to fiddle around with it


Pretty good so far :D We've already got Movement II Part A done, byatch!!!!!1 :\m/:

_________________
Image
Add 4495 to my post count, and then stfu about your stupid post count, dammit!


Last edited by Nameless888 on Tue May 10, 2005 10:00 pm, edited 2 times in total.

Top
 Profile  
Reply with quote  
 Post subject:
PostPosted: Tue May 10, 2005 9:50 pm 
Offline
Boom-Boom
Boom-Boom
User avatar

Joined: Mon Apr 11, 2005 9:36 am
Posts: 2112
Location: In an underwater cavern of some sort with lots of spikes...
word, nice job yo... it sounds good to me...

_________________
Image
Add 1519 to my post count...
ohGod_Fallout_ohGod wrote:
What the gay?


Top
 Profile  
Reply with quote  
 Post subject:
PostPosted: Tue May 10, 2005 10:02 pm 
Offline
Pirahna Plant
Pirahna Plant
User avatar

Joined: Sat Apr 16, 2005 9:14 pm
Posts: 344
Location: St Augustine, Fl
If you could try to figure out that one measure I'm missing for 1:53, I'd appreciate it, I think I know how it starts, I just can't get this one part of it right :-? I gotta go to bed and stuff now tho, soo, rock out, dude :\m/:

Hope all of y'all enjoy, and hopefully more will become interested in tabbing it out with me once they see the awesome fruitfulness of 1 day's work :mrgreen:

_________________
Image
Add 4495 to my post count, and then stfu about your stupid post count, dammit!


Top
 Profile  
Reply with quote  
 Post subject:
PostPosted: Tue May 10, 2005 10:07 pm 
Offline
Boom-Boom
Boom-Boom
User avatar

Joined: Mon Apr 11, 2005 9:36 am
Posts: 2112
Location: In an underwater cavern of some sort with lots of spikes...
yeah it's a bit late for me to break out the guitar and start jammin, but I'll (note: I cannot spell 'definitely' correctly) work on it tomorrow... I meant to try and do some today but I went to observe some teaching at my dad's high school (since I'm going to be a teacher), but tomorrow (note: I cannot spell 'definitely' correctly)...

_________________
Image
Add 1519 to my post count...
ohGod_Fallout_ohGod wrote:
What the gay?


Top
 Profile  
Reply with quote  
 Post subject:
PostPosted: Tue May 10, 2005 10:36 pm 
Offline
Pirahna Plant
Pirahna Plant
User avatar

Joined: Sat Apr 16, 2005 9:14 pm
Posts: 344
Location: St Augustine, Fl
Alrighty dude, cool :wink: I can probably figure it out, but it's late now, soo, yea.

_________________
Image
Add 4495 to my post count, and then stfu about your stupid post count, dammit!


Top
 Profile  
Reply with quote  
 Post subject:
PostPosted: Mon May 16, 2005 4:12 pm 
Offline
Goomba
Goomba
User avatar

Joined: Sun Apr 17, 2005 4:49 pm
Posts: 90
Sorry I just noticed this thread, guys. I love helping you guys tab out the songs...it's something that needs to get done but I have very little inclination to do it all by myself....GO TEAM VENTURE!

Nameless: the little bridge in Mvmt2PrtA -- just think Sting / The Police:

Code:
|-----------------------------------|
|-----------------------------------|
|-----------------------------------|
|-------7-----3---------7-----3-----|
|---5-----5-----5---5-----5-----5---|
|-3---3-----3-----3---3-----3-------|
 
|-----------------------------------|
|-----------------------------------|
|-------7-----3---------7-----3-----|
|---5-----5-----5---5-----5-----5---|
|-3---3-----3-----3---3-----3-------|
|-----------------------------------|

|-----------------------------------|
|-----------------------------------|
|-------10---------------5----------|
|---8-----8---8------3-----3---3----|
|-6---6-----6---6--1---1-----1---1--|
|-----------------------------------|

|-----------------------------------|
|-----------------------------------|
|-----------------------7-----------|
|-------6-----------7-----7---7-----|
|---6-----6---6---5---5-----5---5---|
|-4---4-----4---4-------------------|

|-----------------------------------|
|-----------------------------------|
|-----------------------------------|
|-------7-----3---------7-----3-----|
|---5-----5-----5---5-----5-----5---|
|-3---3-----3-----3---3-----3-------|
 
|-----------------------------------|
|-----------------------------------|
|-------7-----3---------7-----3-----|
|---5-----5-----5---5-----5-----5---|
|-3---3-----3-----3---3-----3-------|
|-----------------------------------|

|-----------------------------------|
|-----------------------------------|
|-------10---------------12---------|
|---8-----8---8------10----10--10---|
|-6---6-----6---6--8---8-----8---8--|
|-----------------------------------|

|-----------------------------------|
|-----------------------------------|
|-----------------------------------|
|-------7----------------8----------|
|---5-----5---5------5-----5---5----|
|-3---3-----3---3--3---3-----3---3--|


Top
 Profile  
Reply with quote  
 Post subject:
PostPosted: Mon May 16, 2005 7:09 pm 
Offline
Pirahna Plant
Pirahna Plant
User avatar

Joined: Sat Apr 16, 2005 9:14 pm
Posts: 344
Location: St Augustine, Fl
:\m/: Thanks, Wily, you're awesome!

*edit*
Hey, I actually got a lot of those right, but I just played the notes on a different part of the guitar, like I played a 2 on the next string instead of a 7 on the string below it, etc etc.

Yay, I have a good ear for tabbing! :mrgreen:

_________________
Image
Add 4495 to my post count, and then stfu about your stupid post count, dammit!


Top
 Profile  
Reply with quote  
 Post subject:
PostPosted: Mon May 16, 2005 9:52 pm 
Offline
Boom-Boom
Boom-Boom
User avatar

Joined: Mon Apr 11, 2005 9:36 am
Posts: 2112
Location: In an underwater cavern of some sort with lots of spikes...
Cool Wily approves! So that means the stuff I tabbed out was right?

*thinks he deserves a custom title*

I haven't had time to work on more of it cause I've been studying my ass off for my last two finals tomorrow, but once those are over I'll be in full summer mode so I'll work on it some more (except wednesday... because that is Episode III day...)

_________________
Image
Add 1519 to my post count...
ohGod_Fallout_ohGod wrote:
What the gay?


Top
 Profile  
Reply with quote  
 Post subject:
PostPosted: Wed May 25, 2005 12:55 pm 
Offline
Pirahna Plant
Pirahna Plant
User avatar

Joined: Sat Apr 16, 2005 9:14 pm
Posts: 344
Location: St Augustine, Fl
I'm sorta figuring out a little bit of Movement Two B, but I'm probably getting it wrong so far. Oh well, I'm glad we figured out IIa, at least :D

_________________
Image
Add 4495 to my post count, and then stfu about your stupid post count, dammit!


Top
 Profile  
Reply with quote  
Display posts from previous:  Sort by  
Post new topic Reply to topic  [ 18 posts ] 

All times are UTC - 5 hours [ DST ]


Who is online

Users browsing this forum: No registered users and 4 guests


You cannot post new topics in this forum
You cannot reply to topics in this forum
You cannot edit your posts in this forum
You cannot delete your posts in this forum
You cannot post attachments in this forum

Search for:
Jump to:  
cron
Powered by phpBB® Forum Software © phpBB Group