neskimos.com

celebrating controller thumb for 00001100 years.
It is currently Sat Aug 17, 2019 12:58 pm

All times are UTC - 5 hours [ DST ]




Post new topic Reply to topic  [ 9 posts ] 
Author Message
PostPosted: Tue Jul 03, 2007 6:31 pm 
Offline
Chain Chomp
Chain Chomp
User avatar

Joined: Tue Mar 20, 2007 12:51 pm
Posts: 794
Location: Orlando FL
But it is a Listener Request!

I was wondering 2 things!

1) Is it possible to get any tabs for the songs the NESkimo's do? Their versions specifically?
2) More specifically, the version of Double Dragon they did?

I ask this because I am starting to learn to play guitar, just starting out, and wanted to examine some of these songs, as this is the style I intend to play. I just want to use it for a combination of practice, learning, and enjoyment :)

If its not possible thats fine.

Also, does anyone have any suggestions of good instructional books for a real beginner?

_________________
My Little Corner of the Web


Top
 Profile  
Reply with quote  
 Post subject:
PostPosted: Tue Jul 03, 2007 7:20 pm 
Offline
Angry Star
Angry Star
User avatar

Joined: Sat May 21, 2005 5:21 pm
Posts: 8668
http://www.neskimos.com/tabs/

no Double Dragon but they have all the other goodies

_________________
ImageImage
Nameless88 wrote:
Also, really hope the soundtrack CD for the movie is the stuff from the actual movie, because this might be the first soundtrack I've actually bought from a movie since like...fucking Pokemon The First Movie. Yeah, I bought it, I was like 12 when it came out, big whoop, wanna fight about it?


Top
 Profile  
Reply with quote  
 Post subject:
PostPosted: Wed Jul 04, 2007 6:47 am 
Offline
Angry Star
Angry Star
User avatar

Joined: Fri Jun 04, 2004 11:17 am
Posts: 5970
Location: Brooklyn, NY
Besides those, me and Nameless had most of Bionic Commando Movement I tabbed and someone had most of Grape Garden tabbed. I don't remember anything else.

_________________
Image
360/PS3/PS4/Steam: basinpup
Fallout wrote:
What the gay?


Top
 Profile  
Reply with quote  
 Post subject:
PostPosted: Wed Jul 04, 2007 9:20 am 
Offline
Chain Chomp
Chain Chomp
User avatar

Joined: Tue Mar 20, 2007 12:51 pm
Posts: 794
Location: Orlando FL
Oh sweet, Wood Man and Bubble Man!

I really wish there was Double Dragon, but I will take what I can get :D

_________________
My Little Corner of the Web


Top
 Profile  
Reply with quote  
 Post subject:
PostPosted: Wed Jul 04, 2007 11:21 am 
Offline
Angry Star
Angry Star
User avatar

Joined: Sat Jun 11, 2005 8:29 am
Posts: 5674
Location: Quills, Australia
Code:
e-------------------------------------------
b-------------------------------------------
g------------------------------2-0---0------
d-3-------3-2-0-2---5-3-2-3--------3----0-5-
a---3-5-------------------------------------
e-------------------------------------------


e-------------------------------
b-------------------------------
g-2-3----3-2----2-0--------3----
d-----3------3---------3-5---5--
a-------------------------------
e-------------------------------


this is the main riff.
just did that then, i might do the whole song if you ask nicely.


Edit: dammit why the hell isnt code in a truetype font?

_________________
Image i dreamed that I fucked my cat. She had big human arms and force fed me the medicine I've been force feeding her for the last two weeks. Then she forced me to sit on her lap so she could pet me to assure me she still loves me.
Nameless88 wrote:
Also, Gimp, I can see your dick from my house


Top
 Profile  
Reply with quote  
 Post subject:
PostPosted: Wed Jul 04, 2007 2:11 pm 
Offline
Fucking Sandals!
User avatar

Joined: Tue Jun 07, 2005 3:57 pm
Posts: 5005
Location: Ego tripping at the gates of Hell (Minnesota)
I tabbed out a bit of Contra Jungle a while back, but I can't remember where it is. I'll try to find it, and maybe try to help tabbing DD.

_________________
Image
I'm sciencing as fast as I can!


Top
 Profile  
Reply with quote  
 Post subject:
PostPosted: Wed Jul 04, 2007 4:06 pm 
Offline
Dragon Slaying NESkimite
User avatar

Joined: Sat Dec 20, 2003 2:52 pm
Posts: 12842
Location: Seattle, WA
gimp wrote:
Code:
e-------------------------------------------
b-------------------------------------------
g------------------------------2-0---0------
d-3-------3-2-0-2---5-3-2-3--------3----0-5-
a---3-5-------------------------------------
e-------------------------------------------


e-------------------------------
b-------------------------------
g-2-3----3-2----2-0--------3----
d-----3------3---------3-5---5--
a-------------------------------
e-------------------------------


this is the main riff.
just did that then, i might do the whole song if you ask nicely.


Edit: dammit why the hell isnt code in a truetype font?


I'll try to fix that...

_________________
xkcd must die.
Nameless wrote:
Do you mind? He's on official trolling business. Very important. :redv:


Top
 Profile  
Reply with quote  
 Post subject:
PostPosted: Thu Jul 05, 2007 9:05 am 
Offline
Chain Chomp
Chain Chomp
User avatar

Joined: Tue Mar 20, 2007 12:51 pm
Posts: 794
Location: Orlando FL
gimp wrote:
Code:
e-------------------------------------------
b-------------------------------------------
g------------------------------2-0---0------
d-3-------3-2-0-2---5-3-2-3--------3----0-5-
a---3-5-------------------------------------
e-------------------------------------------


e-------------------------------
b-------------------------------
g-2-3----3-2----2-0--------3----
d-----3------3---------3-5---5--
a-------------------------------
e-------------------------------


this is the main riff.
just did that then, i might do the whole song if you ask nicely.


Edit: dammit why the hell isnt code in a truetype font?


Thats the main riff of Double Dragon? Neat!

Thanks! If you have the time and could do it, could you please do the whole song? :) Pretty please? :D

_________________
My Little Corner of the Web


Top
 Profile  
Reply with quote  
 Post subject:
PostPosted: Fri Jul 06, 2007 12:21 am 
Offline
Angry Star
Angry Star
User avatar

Joined: Sat Jun 11, 2005 8:29 am
Posts: 5674
Location: Quills, Australia
Stomphoof wrote:
gimp wrote:
Code:
e-------------------------------------------
b-------------------------------------------
g------------------------------2-0---0------
d-3-------3-2-0-2---5-3-2-3--------3----0-5-
a---3-5-------------------------------------
e-------------------------------------------


e-------------------------------
b-------------------------------
g-2-3----3-2----2-0--------3----
d-----3------3---------3-5---5--
a-------------------------------
e-------------------------------


this is the main riff.
just did that then, i might do the whole song if you ask nicely.


Edit: dammit why the hell isnt code in a truetype font?


Thats the main riff of Double Dragon? Neat!

Thanks! If you have the time and could do it, could you please do the whole song? :) Pretty please? :D


ill tab a bit more later today, no guarantees about whether ill do the whole song or how correct i'll be.

_________________
Image i dreamed that I fucked my cat. She had big human arms and force fed me the medicine I've been force feeding her for the last two weeks. Then she forced me to sit on her lap so she could pet me to assure me she still loves me.
Nameless88 wrote:
Also, Gimp, I can see your dick from my house


Top
 Profile  
Reply with quote  
Display posts from previous:  Sort by  
Post new topic Reply to topic  [ 9 posts ] 

All times are UTC - 5 hours [ DST ]


Who is online

Users browsing this forum: No registered users and 1 guest


You cannot post new topics in this forum
You cannot reply to topics in this forum
You cannot edit your posts in this forum
You cannot delete your posts in this forum
You cannot post attachments in this forum

Search for:
Jump to:  
cron
Powered by phpBB® Forum Software © phpBB Group